Standard Tuning:
E A D G B E      

“it’s just a funny little symbol..” 

                  F6                                Bb                           

e|----------6--6-6-------|
B|-8--8-8---6--6-6-------|
G|-7--7-7---7--7-7--(3x)-|
D|-7--7-7---8--8-8-------|
A|-8--8-8---8--8-8-------|
E|----------6--6-6-------|

“as if to show me..”

Gmin                 C

e|--------------8---8--8-|
B|-1O--1O-1O----8---8--8-|
G|-1O--1O-1O----9---9--9-|
D|--8---8--8---1O--1O-1O-|
A|-1O--1O-1O---1O--1O-1O-|
E|--------------8---8--8-|

  “parts of my heart..”  

            Gmin       C        F-E       Dmin7                  

e|-1O---8---------1O------|
B|-11---8--1O-1O--1O------|
G|-12---9--1O-1O--1O-(3x)-|
D|-12--1O--1O-1O--1O------|
A|-1O--1O---8--7----------|
E|------8---------1O------|

“it’s in the way..”

Gmin                 C

e|--------------8---8--8-|
B|-1O--1O-1O----8---8--8-|
G|-1O--1O-1O----9---9--9-|
D|--8---8--8---1O--1O-1O-|
A|-1O--1O-1O---1O--1O-1O-|
E|--------------8---8--8-|


“and the first to sing..”

Cmin7       

e|-8-8-8-8-8-8-8-8-8~|
B|-8-8-8-8-8-8-8-8-8~|
G|-8-8-8-8-8-8-8-8-8~|
D|-8-8-8-8-8-8-8-8-8~|
A|-------------------|
E|-8-8-8-8-8-8-8-8-8~|




“I love your tragedy..” e|-----1O~--8~--1O-11-12~-1O~| B|-8-9-1O~--8~--1O-11-12~-1O~| G|-7-8-1O~--9~--1O-11-12~-11~| D|-7-8--8~-1O~---8--9-1O~-12~| A|-8-9-1O~-1O~--1O-11-12~-12~| E|----------8~------------1O~|
“but most of all..”
e|-1O--9-1O~--1O~|
B|-1O--9-1O~--1O~|
G|-11-1O-1O~---9~|
D|-12-11--8~--1O~|
A|-12-11-1O~--1O~|
E|-1O--9-------8~|



“When you sing..” 

                       F6               E6          Eb6                         

e|----------------------|
B|-8--8-8--7--6--6-6--7-|
G|-7--7-7--6--5--5-5--6-|
D|-7--7-7--6--5--5-5--6-|
A|-8--8-8--7--6--6-6--7-|
E|----------------------|