Standard Tuning:
E A D G B E      

“she’ll catch a plane in the morning..”
e|-------------------------|
B|-3--3--3--3-3--3--3--3-3-|
G|-4--2--4--2-2--4--2--4-2-|
D|-2--4--2--4-4--2--4--2-4-|
A|-3--3--3--3-3--3--3--3-3-|
E|-------------------------|
e|-O--O--O--O---O--O--O--O-|
B|-3--3--3--3---3--3--3--3-|
G|-4--4--4--4---4--4--4--4-|
D|-2--2--2--2---O--O--O--O-|
A|--------------2--2--2--2-|
E|-3--3--3--3---O--O--O--O-|



“But she’ll never stop..”
e|---1O--12--1O-12-1O--1O~-12-1O-12-|
B|---1O--12--1O-12-1O--1O~-12-1O-12-|
G|----9-----------------9~----------|
D|----9-----------------9~----------|
A|----------------------------------|
E|-3/8~-----------------8~----------|


“I’ll dig up the dirt..”
e|-7---7-----7----7-1O-7-7----------O~|
B|-8---7h8-7-8--7-8--------7-8--5-7-O~|
G|-7---7---8-7--8-7--------8-7--5-7-7~|
D|-9---9---7-9--7-9--------7-9--5-7-5~|
A|-1O--7---6-7--6-7--------6-7------7~|
E|------------------------------5-7---|


“How come it’s just..”

                A                            D                  

e|-----------------------|
B|-8h7---------8h7-------|
G|-5-----------5---------|
D|-5---(x5)----5----(5x)-|
A|-------------5---------|
E|-5---------------------|



“I mouth words..”
e|---------------------------|
B|-3-3-----------------------|
G|-4-2--5-4-2----------------|
D|-2-4---------5-4-2----(3x)-|
A|-3-3---------------5-------|
E|---------------------------|

“To you..”

           G                      G7            

e|--------------------------|
B|--------------------------|
G|--------------------------|
D|---2---2h3--2-3-2-3-2-3-2-|
A|--2----2------------------|
E|-3---3--------------------|