Standard Tuning:
E A D G B E      

“i still think about you..” 

                                                           F#m    B    E    A                                              

e|-------------9--7-----5-|
B|------------10--7--9--5-|
G|------------11--8--9--6-|
D|-----9-6-9--11--9--9--7-|
A|-7-7---------9--9--7--7-|
E|----------------7-----5-|

“blowing kisses like only a queen..”
Aminor

e|-5~----|
B|-5~----|
G|-5~----|
D|-7~----|
A|-7~----|
E|-5~----|


“I fall faster than I need to..”
F#m    B                               

e|------7~---------------|
B|-9-9--7~---------------|
G|-9-9--8~---------------|
D|-7-7--9~---------------|
A|-9-9--9~-------2-----2-|
E|------7~---2-4---2-4---|


“But love is ..”
 E        F#m        A           B 

e|-----------5-5--7-7-|
B|-9-9--9-9--5-5--7-7-|
G|-9-9--9-9--6-6--8-8-|
D|-6-6--7-7--7-7--9-9-|
A|-7-7--9-9--7-7--9-9-|
E|-----------5-5--7-7-|

(Bridge section)
“I heard you’re seeing..” 
F#m      B       A       B  

e|-----7--5--7~--|
B|--9--7--5--7~--|
G|--9--8--6--8~--|
D|--7--9--7--9~--|
A|--9--9--7--9~--|
E|-----7--5--7~--|

Guitar Solo (over chorus chords)

e|---------------------------------|
B|-1O~--9~--1O~--12~--9-12-9-------|
G|--------------------------11~-9~-|
D|---------------------------------|
A|---------------------------------|
E|---------------------------------|
e|---------------------------|
B|-9-1O-1O~1O~1O~1O~1O~1O~1O~|
G|-9-------------------------|
D|-11------------------------|
A|---------------------------|
E|---------------------------|
e|------------------------------------|
B|-1O-9-------------------------------|
G|------9h11-9------------------------|
D|---------------9h11-9----------9--9-|
A|----------------------9h1Oh11---11--|
E|------------------------------------|
e|------------------------------------|
B|------------------------------------|
G|-9-11-9--8-9-8----------------------|
D|----------------9-11-9--6h7p6-------|
A|------------------------------9-7-6-|
E|------------------------------------|
e|---------------------------|
B|---------------------------|
G|---------------------------|
D|---------------------------|
A|-6h7p6----6h7p6----6h7p6---|
E|------9--------9--------9--|