Standard Tuning:
E A D G B E       

“don’t hop off the tram i don’t know where i am..” 

                   E major                                  E maj7                           

e|-4-4-4-4-4-4-4-4---4-4-4-4-4-4-4-4-|
B|-5-5-5-5-5-5-5-5---4-4-4-4-4-4-4-4-|
G|-4-4-4-4-4-4-4-4---4-4-4-4-4-4-4-4-|
D|-6-6-6-6-6-6-6-6---6-6-6-6-6-6-6-6-|
A|-7-7-7-7-7-7-7-7---7-7-7-7-7-7-7-7-|
E|-----------------------------------|
 

“and I don’t want you lost in this city..”
C#/Amaj7                           A                      B

e|-4-4-4-4-4-4-4-4---O-O-O-O---O-O-O-O-|
B|-5-5-5-5-5-5-5-5---5-5-5-5---7-7-7-7-|
G|-6-6-6-6-6-6-6-6---6-6-6-6---8-8-8-8-|
D|-7-7-7-7-7-7-7-7---7-7-7-7---9-9-9-9-|
A|-4-4-4-4-4-4-4-4---O-O-O-O---O-O-O-O-|
E|-------------------------------------|

Bridge chords 


        E maj7                          Gmaj7

e|-4-4-4-4-4----7--7--7--7--7-|
B|-4-4-4-4-4----7--7--7--7--7-|
G|-4-4-4-4-4----7--7--7--7--7-|
D|-6-6-6-6-6----9--9--9--9--9-|
A|-7-7-7-7-7---1O--1O-1O-1O-1O|
E|----------------------------|

“there you go you’re leaving town..”

A                                                  B

e|-O-O-O-O-O-O-O-O---O-O-O-O-O-O-O-O-|
B|-5-5-5-5-5-5-5-5---7-7-7-7-7-7-7-7-|
G|-6-6-6-6-6-6-6-6---8-8-8-8-8-8-8-8-|
D|-7-7-7-7-7-7-7-7---9-9-9-9-9-9-9-9-|
A|-7-7-7-7-7-7-7-7---9-9-9-9-9-9-9-9-|
E|-5-5-5-5-5-5-5-5---7-7-7-7-7-7-7-7-|