Standard Tuning:
E A D G B E      

“baby are you serious, i can’t keep doing this..” 

                   A major                          C#minor                    

e|-5--5-5--5-5--5-5--4--4-4--4-4--4-4-|
B|-5--5-5--5-5--5-5--5--5-5--5-5--5-5-|
G|-6--6-6--6-6--6-6--6--6-6--6-6--6-6-|
D|-7--7-7--7-7--7-7--6--6-6--6-6--6-6-|
A|-7--7-7--7-7--7-7--4--4-4--4-4--4-4-|
E|-5--5-5--5-5--5-5-------------------|
“what’s the meaning of your necklace..like a period”
Bminor                        Emajor 
e|-3-2--2-2--2-2--2-2--O--O-O--O-O-O-|
B|-4-3--3-3--3-3--3-3--O--O-O--O-O-O-|
G|-5-4--4-4--4-4--4-4--1--1-1--1-1-1-|
D|-5-4--4-4--4-4--4-4--2--2-2--2-2-2-|
A|-3-2--2-2--2-2--2-2--2--2-2--2-2-2-|
E|---------------------O--O-O--O-O-O-|

“you can’t believe i said that..”

            Bminor                                 C#minor            

e|-2--2-2--2-2--2-2--3--4--4-4--4-4--4-|
B|-3--3-3--3-3--3-3--4--5--5-5--5-5--5-|
G|-4--4-4--4-4--4-4--5--6--6-6--6-6--6-|
D|-4--4-4--4-4--4-4--5--6--6-6--6-6--6-|
A|-2--2-2--2-2--2-2--3--4--4-4--4-4--4-|
E|-------------------------------------|

“for all the things you used to say..”

D                                                  E

e|------------------------------------|
B|-7--7-7--7-7--7-7--9--9-9--9-9--9-9-|
G|-7--7-7--7-7--7-7--9--9-9--9-9--9-9-|
D|-7--7-7--7-7--7-7--9--9-9--9-9--9-9-|
A|-5--5-5--5-5--5-5--7--7-7--7-7--7-7-|
E|------------------------------------|


“oh oh oh oh i’m serious..”

E         D         C#m        Bm

e|------------------------------|
B|------------------------------|
G|--9--7--6--4--4-4-4-4-4-4-4-4-|
D|--9--7--6--4--4-4-4-4-4-4-4-4-|
A|-11--9--7--5--5-5-5-5-5-5-5-5-|
E|------------------------------|